Sayfayı Yazdır | Pencereyi Kapat

kolay çalınan tablar 2

Nereden Yazdırıldığı: www.gitarlong.net
Kategori: Akorlar-Notalar-Tablar
Forum Adı: Tablar
Forum Tanımlaması: Tüm Yerli Yabancı Tab Paylaşımları
URL: http://www.gitarlong.net/forum/forum_posts.asp?TID=2231
Tarih: 28-Kasım-2014 Saat 07:27
Program Versiyonu: Web Wiz Forums 8.04 - http://www.webwizforums.com


Konu: kolay çalınan tablar 2
Mesajı Yazan: weezer
Konu: kolay çalınan tablar 2
Mesaj Tarihi: 26-Mayıs-2009 Saat 09:37
arkadaşlar merhaba
 
kolay çalınan tab arıyorum. evet sistemde yüzlerce tab var ama ben yeniyim ve yeni oldugum için hangisinin kolay hangisisnin zor olduguna hakverirsinizki karar vermeiyorum..
 
lütfen konuyu kapatmayın
 
paylaşımlarınızı bekliyorum teşekkürler



Cevaplar:
Mesajı Yazan: sedatycel
Mesaj Tarihi: 26-Mayıs-2009 Saat 12:15
örneğin "bana bir masal anlat baba"
 
B|-0----3-----2-3-2--

B|-2-2-2-2-3--5--3--2---0-------

B|--0-0-0-0---2---3-2----0----3--
 
Bir sarkisin sen...
E--------------------------------------------------I
B------------1-3-1-0----0----0-------0-1-----------I
G-0-2-0--------------0-2---2---2-0-------2-0---0---I
D-------3-2------------------------3---------3---2-I
 

Godfather

e ---------0--3--2--0--3--0--2--0----------------------          
b ----0---------------------------------1--3--0----------
 
Hatırla sevgili
e -------------0---------0--------------0---------------------------------
b --------1-------3--1------------1-------3--1--0-----------------------
g ---2--------------------------2-------------------------------------------


e ----------------------------1---0------------------------------------
b ----0--1--3--1---0--3-----------0--1---3---1---0----------
g ----------------------------------------------------------2----
bunlarla başlayabilirsin egzersiz için çok uygun bence...


Mesajı Yazan: rock_hzl
Mesaj Tarihi: 13-Haziran-2009 Saat 20:08
bence burda tab beklemek yerine kendin araştırmalısın. aramanın güzelliği ayrı olur =)
açar bakarsın denersin olcak gibiyse ayırırsın üstünde çalışırsın  belki çok sevdiğin bi parçayı bulursun ona daha çok çalışırsın zor olsa da sevdiğin için çalmaya çalışırsın
 
yine de açık kalsın konu..buraya paylaşım yapan olursa her zaman açığız tabi ki =)


Mesajı Yazan: RocKNCoKe
Mesaj Tarihi: 21-Haziran-2009 Saat 13:05
e
b
g die yazmayın 1. tel 2. tel yenı basladıgım ıcın kafam karısıo :D


Mesajı Yazan: akn_pek
Mesaj Tarihi: 22-Haziran-2009 Saat 11:55
forumda iyi araştır gitar üstündeki notaları öğren tab okumayı güzel öğren yoksa sen kolay tab falan hiç bişey çalamazsın,zaten böle bi saçmalığıda ilk kez duyuyorum.


Mesajı Yazan: mirh05
Mesaj Tarihi: 31-Temmuz-2009 Saat 12:36
Godfather
e ---------0--3--2--0--3--0--2--0----------------------           
b ----0---------------------------------1--3--0----------

doğrumudur
not : bu siteyi yeni keşfettim çohk güzel inş bu siteden kendimi geliştiririm


Mesajı Yazan: goldkey1
Mesaj Tarihi: 01-Şubat-2010 Saat 17:28
doğrudur mirh05 =)


Mesajı Yazan: doruk
Mesaj Tarihi: 01-Şubat-2010 Saat 20:01
Orjinalini yazan: mirh05

Godfather
e ---------0--3--2--0--3--0--2--0----------------------           
b ----0---------------------------------1--3--0----------

doğrumudur
not : bu siteyi yeni keşfettim çohk güzel inş bu siteden kendimi geliştiririm


godfather tab bütün olarak burda var:
http://www.gitarlong.net/forum/forum_posts.asp?TID=1451 - http://www.gitarlong.net/forum/forum_posts.asp?TID=1451


-------------
Günler Tepelerden Aşırı Koşan Vahşi Atlar Misali...


Mesajı Yazan: 3MR3
Mesaj Tarihi: 26-Şubat-2010 Saat 16:35
tabı kolay ama güzel ve orjinal bir şarkı lazım arkadaşlar yardım ltfn


Mesajı Yazan: mhmt uğur
Mesaj Tarihi: 12-Eylül-2010 Saat 18:28
god father öyle miydi yaa ??


Mesajı Yazan: deathstouch
Mesaj Tarihi: 30-Temmuz-2012 Saat 21:39
burası baya işime yaradı sağolun :) bir kaç parça çalıyorum aynı notalarda sıktı artık yeni tablar bakayım dedim bir kaç tane farklı telden çalmak hoşmuş aynı şarkıyı çala çala kolay olduğunu zannetmiştimde yanıldığımı yeni şarkılarla anladım. önümde daha çoook yol var :D



Sayfayı Yazdır | Pencereyi Kapat

Bulletin Board Software by Web Wiz Forums version 8.04 - http://www.webwizforums.com
Copyright ©2001-2006 Web Wiz Guide - http://www.webwizguide.info